  0
SECTION
  2
HEADER
  9
$ACADVER
  1
AC1015
  9
$ACADMAINTVER
 70
     6
  9
$DWGCODEPAGE
  3
ANSI_1254
  9
$INSBASE
 10
0.0
 20
0.0
 30
0.0
  9
$EXTMIN
 10
0.0
 20
0.0
 30
0.0
  9
$EXTMAX
 10
279.4
 20
215.9
 30
0.0
  9
$LIMMIN
 10
0.0
 20
0.0
  9
$LIMMAX
 10
279.4
 20
215.9
  9
$ORTHOMODE
 70
     0
  9
$REGENMODE
 70
     1
  9
$FILLMODE
 70
     1
  9
$QTEXTMODE
 70
     0
  9
$MIRRTEXT
 70
     1
  9
$LTSCALE
 40
1.0
  9
$ATTMODE
 70
     1
  9
$TEXTSIZE
 40
3.5
  9
$TRACEWID
 40
1.0
  9
$TEXTSTYLE
  7
Standard
  9
$CLAYER
  8
0
  9
$CELTYPE
  6
ByLayer
  9
$CECOLOR
 62
   256
  9
$CELTSCALE
 40
1.0
  9
$DISPSILH
 70
     0
  9
$DIMSCALE
 40
1.0
  9
$DIMASZ
 40
3.5
  9
$DIMEXO
 40
1.0
  9
$DIMDLI
 40
3.75
  9
$DIMRND
 40
0.0
  9
$DIMDLE
 40
0.0
  9
$DIMEXE
 40
1.0
  9
$DIMTP
 40
0.0
  9
$DIMTM
 40
0.0
  9
$DIMTXT
 40
3.5
  9
$DIMCEN
 40
2.5
  9
$DIMTSZ
 40
0.0
  9
$DIMTOL
 70
     0
  9
$DIMLIM
 70
     0
  9
$DIMTIH
 70
     1
  9
$DIMTOH
 70
     1
  9
$DIMSE1
 70
     0
  9
$DIMSE2
 70
     0
  9
$DIMTAD
 70
     1
  9
$DIMZIN
 70
     0
  9
$DIMBLK
  1

  9
$DIMASO
 70
     1
  9
$DIMSHO
 70
     1
  9
$DIMPOST
  1

  9
$DIMAPOST
  1

  9
$DIMALT
 70
     0
  9
$DIMALTD
 70
     3
  9
$DIMALTF
 40
0.0393700787
  9
$DIMLFAC
 40
1.0
  9
$DIMTOFL
 70
     1
  9
$DIMTVP
 40
0.0
  9
$DIMTIX
 70
     0
  9
$DIMSOXD
 70
     0
  9
$DIMSAH
 70
     0
  9
$DIMBLK1
  1

  9
$DIMBLK2
  1

  9
$DIMSTYLE
  2
ISO-25
  9
$DIMCLRD
 70
     0
  9
$DIMCLRE
 70
     0
  9
$DIMCLRT
 70
     0
  9
$DIMTFAC
 40
1.0
  9
$DIMGAP
 40
1.524
  9
$DIMJUST
 70
     0
  9
$DIMSD1
 70
     0
  9
$DIMSD2
 70
     0
  9
$DIMTOLJ
 70
     0
  9
$DIMTZIN
 70
     0
  9
$DIMALTZ
 70
     0
  9
$DIMALTTZ
 70
     0
  9
$DIMUPT
 70
     0
  9
$DIMDEC
 70
     2
  9
$DIMTDEC
 70
     2
  9
$DIMALTU
 70
     2
  9
$DIMALTTD
 70
     3
  9
$DIMTXSTY
  7
Standard
  9
$DIMAUNIT
 70
     0
  9
$DIMADEC
 70
     2
  9
$DIMALTRND
 40
0.0
  9
$DIMAZIN
 70
     0
  9
$DIMDSEP
 70
    44
  9
$DIMATFIT
 70
     3
  9
$DIMFRAC
 70
     0
  9
$DIMLDRBLK
  1

  9
$DIMLUNIT
 70
     2
  9
$DIMLWD
 70
    -2
  9
$DIMLWE
 70
    -2
  9
$DIMTMOVE
 70
     0
  9
$LUNITS
 70
     2
  9
$LUPREC
 70
     2
  9
$SKETCHINC
 40
1.0
  9
$FILLETRAD
 40
10.0
  9
$AUNITS
 70
     0
  9
$AUPREC
 70
     2
  9
$MENU
  1
.
  9
$ELEVATION
 40
0.0
  9
$PELEVATION
 40
0.0
  9
$THICKNESS
 40
0.0
  9
$LIMCHECK
 70
     0
  9
$CHAMFERA
 40
0.0
  9
$CHAMFERB
 40
0.0
  9
$CHAMFERC
 40
0.0
  9
$CHAMFERD
 40
0.0
  9
$SKPOLY
 70
     0
  9
$TDCREATE
 40
2458985.654411609
  9
$TDUCREATE
 40
2458985.529411609
  9
$TDUPDATE
 40
2458985.654411921
  9
$TDUUPDATE
 40
2458985.529411921
  9
$TDINDWG
 40
0.0000000116
  9
$TDUSRTIMER
 40
0.0000000116
  9
$USRTIMER
 70
     1
  9
$ANGBASE
 50
0.0
  9
$ANGDIR
 70
     0
  9
$PDMODE
 70
     0
  9
$PDSIZE
 40
-1.0
  9
$PLINEWID
 40
0.0
  9
$SPLFRAME
 70
     0
  9
$SPLINETYPE
 70
     6
  9
$SPLINESEGS
 70
     8
  9
$HANDSEED
  5
CC
  9
$SURFTAB1
 70
     6
  9
$SURFTAB2
 70
     6
  9
$SURFTYPE
 70
     6
  9
$SURFU
 70
     6
  9
$SURFV
 70
     6
  9
$UCSBASE
  2

  9
$UCSNAME
  2

  9
$UCSORG
 10
0.0
 20
0.0
 30
0.0
  9
$UCSXDIR
 10
1.0
 20
0.0
 30
0.0
  9
$UCSYDIR
 10
0.0
 20
1.0
 30
0.0
  9
$UCSORTHOREF
  2

  9
$UCSORTHOVIEW
 70
     0
  9
$UCSORGTOP
 10
0.0
 20
0.0
 30
0.0
  9
$UCSORGBOTTOM
 10
0.0
 20
0.0
 30
0.0
  9
$UCSORGLEFT
 10
0.0
 20
0.0
 30
0.0
  9
$UCSORGRIGHT
 10
0.0
 20
0.0
 30
0.0
  9
$UCSORGFRONT
 10
0.0
 20
0.0
 30
0.0
  9
$UCSORGBACK
 10
0.0
 20
0.0
 30
0.0
  9
$PUCSBASE
  2

  9
$PUCSNAME
  2

  9
$PUCSORG
 10
0.0
 20
0.0
 30
0.0
  9
$PUCSXDIR
 10
1.0
 20
0.0
 30
0.0
  9
$PUCSYDIR
 10
0.0
 20
1.0
 30
0.0
  9
$PUCSORTHOREF
  2

  9
$PUCSORTHOVIEW
 70
     0
  9
$PUCSORGTOP
 10
0.0
 20
0.0
 30
0.0
  9
$PUCSORGBOTTOM
 10
0.0
 20
0.0
 30
0.0
  9
$PUCSORGLEFT
 10
0.0
 20
0.0
 30
0.0
  9
$PUCSORGRIGHT
 10
0.0
 20
0.0
 30
0.0
  9
$PUCSORGFRONT
 10
0.0
 20
0.0
 30
0.0
  9
$PUCSORGBACK
 10
0.0
 20
0.0
 30
0.0
  9
$USERI1
 70
     0
  9
$USERI2
 70
     0
  9
$USERI3
 70
     0
  9
$USERI4
 70
     0
  9
$USERI5
 70
     0
  9
$USERR1
 40
0.0
  9
$USERR2
 40
0.0
  9
$USERR3
 40
0.0
  9
$USERR4
 40
0.0
  9
$USERR5
 40
0.0
  9
$WORLDVIEW
 70
     1
  9
$SHADEDGE
 70
     3
  9
$SHADEDIF
 70
    70
  9
$TILEMODE
 70
     1
  9
$MAXACTVP
 70
    64
  9
$PINSBASE
 10
0.0
 20
0.0
 30
0.0
  9
$PLIMCHECK
 70
     0
  9
$PEXTMIN
 10
1.0000000000E+20
 20
1.0000000000E+20
 30
1.0000000000E+20
  9
$PEXTMAX
 10
-1.0000000000E+20
 20
-1.0000000000E+20
 30
-1.0000000000E+20
  9
$PLIMMIN
 10
0.0
 20
0.0
  9
$PLIMMAX
 10
420.0
 20
297.0
  9
$UNITMODE
 70
     0
  9
$VISRETAIN
 70
     1
  9
$PLINEGEN
 70
     0
  9
$PSLTSCALE
 70
     1
  9
$TREEDEPTH
 70
  3020
  9
$CMLSTYLE
  2
Standard
  9
$CMLJUST
 70
     0
  9
$CMLSCALE
 40
20.0
  9
$PROXYGRAPHICS
 70
     1
  9
$MEASUREMENT
 70
     1
  9
$CELWEIGHT
370
    -1
  9
$ENDCAPS
280
     0
  9
$JOINSTYLE
280
     0
  9
$LWDISPLAY
290
     1
  9
$INSUNITS
 70
     4
  9
$HYPERLINKBASE
  1

  9
$STYLESHEET
  1

  9
$XEDIT
290
     1
  9
$CEPSNTYPE
380
     0
  9
$PSTYLEMODE
290
     1
  9
$FINGERPRINTGUID
  2
{1396df11-4461-4573-952e-60e4f7fdfa7d}
  9
$VERSIONGUID
  2
{FAEB1C32-E019-11D5-929B-00C0DF256EC4}
  9
$EXTNAMES
290
     1
  9
$PSVPSCALE
 40
0.0
  9
$OLESTARTUP
290
     0
  0
ENDSEC
  0
SECTION
  2
CLASSES
  0
CLASS
  1
ACDBDICTIONARYWDFLT
  2
AcDbDictionaryWithDefault
  3
ObjectDBX Classes
 90
        0
280
     0
281
     0
  0
CLASS
  1
VISUALSTYLE
  2
AcDbVisualStyle
  3
ObjectDBX Classes
 90
     4095
280
     0
281
     0
  0
CLASS
  1
MATERIAL
  2
AcDbMaterial
  3
ObjectDBX Classes
 90
     1153
280
     0
281
     0
  0
CLASS
  1
SCALE
  2
AcDbScale
  3
ObjectDBX Classes
 90
     1153
280
     0
281
     0
  0
CLASS
  1
TABLESTYLE
  2
AcDbTableStyle
  3
ObjectDBX Classes
 90
     4095
280
     0
281
     0
  0
CLASS
  1
MLEADERSTYLE
  2
AcDbMLeaderStyle
  3
ACDB_MLEADERSTYLE_CLASS
 90
     4095
280
     0
281
     0
  0
CLASS
  1
SUN
  2
AcDbSun
  3
SCENEOE
 90
     1153
280
     0
281
     0
  0
CLASS
  1
ACDBPLACEHOLDER
  2
AcDbPlaceHolder
  3
ObjectDBX Classes
 90
        0
280
     0
281
     0
  0
CLASS
  1
LAYOUT
  2
AcDbLayout
  3
ObjectDBX Classes
 90
        0
280
     0
281
     0
  0
ENDSEC
  0
SECTION
  2
TABLES
  0
TABLE
  2
VPORT
  5
8
330
0
100
AcDbSymbolTable
 70
     1
  0
VPORT
  5
29
330
8
100
AcDbSymbolTableRecord
100
AcDbViewportTableRecord
  2
*Active
 70
     0
 10
0.0
 20
0.0
 11
1.0
 21
1.0
 12
139.7
 22
107.95
 13
0.0
 23
0.0
 14
10.0
 24
10.0
 15
10.0
 25
10.0
 16
0.0
 26
0.0
 36
1.0
 17
0.0
 27
0.0
 37
0.0
 40
215.9
 41
1.2941176471
 42
50.0
 43
0.0
 44
0.0
 50
0.0
 51
0.0
 71
     0
 72
  2000
 73
     1
 74
     3
 75
     0
 76
     0
 77
     0
 78
     0
281
     0
 65
     1
110
0.0
120
0.0
130
0.0
111
1.0
121
0.0
131
0.0
112
0.0
122
1.0
132
0.0
 79
     0
146
0.0
  0
ENDTAB
  0
TABLE
  2
LTYPE
  5
5
330
0
100
AcDbSymbolTable
 70
     6
  0
LTYPE
  5
14
330
5
100
AcDbSymbolTableRecord
100
AcDbLinetypeTableRecord
  2
ByBlock
 70
     0
  3

 72
    65
 73
     0
 40
0.0
  0
LTYPE
  5
15
330
5
100
AcDbSymbolTableRecord
100
AcDbLinetypeTableRecord
  2
ByLayer
 70
     0
  3

 72
    65
 73
     0
 40
0.0
  0
LTYPE
  5
16
330
5
100
AcDbSymbolTableRecord
100
AcDbLinetypeTableRecord
  2
Continuous
 70
     0
  3
Solid line
 72
    65
 73
     0
 40
0.0
  0
LTYPE
  5
6E
330
5
100
AcDbSymbolTableRecord
100
AcDbLinetypeTableRecord
  2
HIDDEN
 70
     0
  3
Hidden __ __ __ __ __ __ __ __ __ __ __ __ __ __
 72
    65
 73
     2
 40
1.905
 49
1.27
 74
     0
 49
-0.635
 74
     0
  0
LTYPE
  5
6F
330
5
100
AcDbSymbolTableRecord
100
AcDbLinetypeTableRecord
  2
PHANTOM
 70
     0
  3
Phantom ______  __  __  ______  __  __  ______
 72
    65
 73
     6
 40
12.7
 49
6.35
 74
     0
 49
-1.27
 74
     0
 49
1.27
 74
     0
 49
-1.27
 74
     0
 49
1.27
 74
     0
 49
-1.27
 74
     0
  0
LTYPE
  5
70
330
5
100
AcDbSymbolTableRecord
100
AcDbLinetypeTableRecord
  2
CENTER
 70
     0
  3
Center ____ _ ____ _ ____ _ ____ _ ____ _ ____
 72
    65
 73
     4
 40
10.16
 49
6.35
 74
     0
 49
-1.27
 74
     0
 49
1.27
 74
     0
 49
-1.27
 74
     0
  0
LTYPE
  5
71
330
5
100
AcDbSymbolTableRecord
100
AcDbLinetypeTableRecord
  2
CENTERX2
 70
     0
  3
Center (2x) ________  __  ________  __  _____
 72
    65
 73
     4
 40
20.32
 49
12.7
 74
     0
 49
-2.54
 74
     0
 49
2.54
 74
     0
 49
-2.54
 74
     0
  0
LTYPE
  5
72
330
5
100
AcDbSymbolTableRecord
100
AcDbLinetypeTableRecord
  2
DOT2
 70
     0
  3
Dot (.5x) ........................................
 72
    65
 73
     2
 40
0.635
 49
0.0
 74
     0
 49
-0.635
 74
     0
  0
ENDTAB
  0
TABLE
  2
LAYER
  5
2
330
0
100
AcDbSymbolTable
 70
    17
  0
LAYER
  5
10
330
2
100
AcDbSymbolTableRecord
100
AcDbLayerTableRecord
  2
0
 70
     0
 62
     7
  6
Continuous
370
    -3
390
F
  0
LAYER
  5
73
330
2
100
AcDbSymbolTableRecord
100
AcDbLayerTableRecord
  2
FORMAT
 70
     0
 62
     7
  6
Continuous
370
    -3
390
F
  0
LAYER
  5
74
330
2
100
AcDbSymbolTableRecord
100
AcDbLayerTableRecord
  2
YARDIMCI_GEOMETRI
 70
     0
 62
    -6
  6
Continuous
290
     0
370
    -3
390
F
  0
LAYER
  5
75
330
2
100
AcDbSymbolTableRecord
100
AcDbLayerTableRecord
  2
SAYFA_CERCEVESI
 70
     0
 62
     7
  6
Continuous
370
    25
390
F
  0
LAYER
  5
76
330
2
100
AcDbSymbolTableRecord
100
AcDbLayerTableRecord
  2
ANTET
 70
     0
 62
     7
  6
Continuous
370
    -3
390
F
  0
LAYER
  5
77
330
2
100
AcDbSymbolTableRecord
100
AcDbLayerTableRecord
  2
OLCU
 70
     0
 62
   150
  6
Continuous
370
    -3
390
F
  0
LAYER
  5
78
330
2
100
AcDbSymbolTableRecord
100
AcDbLayerTableRecord
  2
METIN
 70
     0
 62
    96
  6
Continuous
370
    -3
390
F
  0
LAYER
  5
79
330
2
100
AcDbSymbolTableRecord
100
AcDbLayerTableRecord
  2
BALON
 70
     0
 62
     5
  6
Continuous
370
    -3
390
F
  0
LAYER
  5
7A
330
2
100
AcDbSymbolTableRecord
100
AcDbLayerTableRecord
  2
VURGU
 70
     0
 62
     7
  6
Continuous
370
    -3
390
F
  0
LAYER
  5
7B
330
2
100
AcDbSymbolTableRecord
100
AcDbLayerTableRecord
  2
SILIK
 70
     0
 62
     7
  6
Continuous
370
    -3
390
F
  0
LAYER
  5
7C
330
2
100
AcDbSymbolTableRecord
100
AcDbLayerTableRecord
  2
MODEL
 70
     0
 62
     7
  6
Continuous
370
    -3
390
F
  0
LAYER
  5
7D
330
2
100
AcDbSymbolTableRecord
100
AcDbLayerTableRecord
  2
DETAYLANDıRMA
 70
     0
 62
   190
  6
Continuous
370
    -3
390
F
  0
LAYER
  5
7E
330
2
100
AcDbSymbolTableRecord
100
AcDbLayerTableRecord
  2
TOLERANS
 70
     0
 62
   230
  6
Continuous
370
    -3
390
F
  0
LAYER
  5
7F
330
2
100
AcDbSymbolTableRecord
100
AcDbLayerTableRecord
  2
MERKEZ_CIZGILERI
 70
     0
 62
    30
  6
Continuous
370
    -3
390
F
  0
LAYER
  5
80
330
2
100
AcDbSymbolTableRecord
100
AcDbLayerTableRecord
  2
KESIT-DETAY_CIZGILERI
 70
     0
 62
     7
  6
Continuous
370
    -3
390
F
  0
LAYER
  5
81
330
2
100
AcDbSymbolTableRecord
100
AcDbLayerTableRecord
  2
\U+041E\U+0421\U+0415\U+0412\U+042B\U+0415
 70
     0
 62
     7
  6
Continuous
370
    -3
390
F
  0
LAYER
  5
82
330
2
100
AcDbSymbolTableRecord
100
AcDbLayerTableRecord
  2
\U+0412\U+041E\U+0414\U+042F\U+041D\U+042B\U+0415_\U+0417\U+041D\U+0410\U+041A\U+0418
 70
     0
 62
    11
  6
Continuous
370
    -3
390
F
  0
ENDTAB
  0
TABLE
  2
STYLE
  5
3
330
0
100
AcDbSymbolTable
 70
     1
  0
STYLE
  5
11
330
3
100
AcDbSymbolTableRecord
100
AcDbTextStyleTableRecord
  2
Standard
 70
     0
 40
0.0
 41
1.0
 50
0.0
 71
     0
 42
3.5
  3
txt
  4

  0
ENDTAB
  0
TABLE
  2
VIEW
  5
6
330
0
100
AcDbSymbolTable
 70
     0
  0
ENDTAB
  0
TABLE
  2
UCS
  5
7
330
0
100
AcDbSymbolTable
 70
     0
  0
ENDTAB
  0
TABLE
  2
APPID
  5
9
330
0
100
AcDbSymbolTable
 70
     1
  0
APPID
  5
12
330
9
100
AcDbSymbolTableRecord
100
AcDbRegAppTableRecord
  2
ACAD
 70
     0
  0
ENDTAB
  0
TABLE
  2
DIMSTYLE
  5
A
330
0
100
AcDbSymbolTable
 70
     1
100
AcDbDimStyleTable
  0
DIMSTYLE
105
27
330
A
100
AcDbSymbolTableRecord
100
AcDbDimStyleTableRecord
  2
ISO-25
 70
     0
 41
2.5
 42
0.625
 43
3.75
 44
1.25
 73
     0
 74
     0
 77
     1
 78
     8
140
2.5
141
2.5
143
0.0393700787
147
0.625
171
     3
172
     1
178
     0
271
     2
272
     2
274
     3
278
    44
283
     0
284
     8
340
11
  0
ENDTAB
  0
TABLE
  2
BLOCK_RECORD
  5
1
330
0
100
AcDbSymbolTable
 70
     2
  0
BLOCK_RECORD
  5
1F
330
1
100
AcDbSymbolTableRecord
100
AcDbBlockTableRecord
  2
*Model_Space
340
22
  0
BLOCK_RECORD
  5
1B
330
1
100
AcDbSymbolTableRecord
100
AcDbBlockTableRecord
  2
*Paper_Space
340
1E
  0
BLOCK_RECORD
  5
23
330
1
100
AcDbSymbolTableRecord
100
AcDbBlockTableRecord
  2
*Paper_Space0
340
26
  0
BLOCK_RECORD
  5
87
330
1
100
AcDbSymbolTableRecord
100
AcDbBlockTableRecord
  2
SW_CENTERMARKSYMBOL_0
340
0
102
{BLKREFS
331
92
102
}
  0
ENDTAB
  0
ENDSEC
  0
SECTION
  2
BLOCKS
  0
BLOCK
  5
20
330
1F
100
AcDbEntity
  8
0
100
AcDbBlockBegin
  2
*Model_Space
 70
     0
 10
0.0
 20
0.0
 30
0.0
  3
*Model_Space
  1

  0
ENDBLK
  5
21
330
1F
100
AcDbEntity
  8
0
100
AcDbBlockEnd
  0
BLOCK
  5
1C
330
1B
100
AcDbEntity
 67
     1
  8
0
100
AcDbBlockBegin
  2
*Paper_Space
 70
     0
 10
0.0
 20
0.0
 30
0.0
  3
*Paper_Space
  1

  0
ENDBLK
  5
1D
330
1B
100
AcDbEntity
 67
     1
  8
0
100
AcDbBlockEnd
  0
BLOCK
  5
24
330
23
100
AcDbEntity
  8
0
100
AcDbBlockBegin
  2
*Paper_Space0
 70
     0
 10
0.0
 20
0.0
 30
0.0
  3
*Paper_Space0
  1

  0
ENDBLK
  5
25
330
23
100
AcDbEntity
  8
0
100
AcDbBlockEnd
  0
BLOCK
  5
88
330
87
100
AcDbEntity
  8
0
100
AcDbBlockBegin
  2
SW_CENTERMARKSYMBOL_0
 70
     0
 10
0.0
 20
0.0
 30
0.0
  3
SW_CENTERMARKSYMBOL_0
  1

  0
LINE
  5
8A
330
87
100
AcDbEntity
  8
FORMAT
 62
     0
100
AcDbLine
 10
0.0
 20
0.0
 30
0.0
 11
0.0
 21
2.5
 31
0.0
  0
LINE
  5
8B
330
87
100
AcDbEntity
  8
FORMAT
 62
     0
100
AcDbLine
 10
0.0
 20
0.0
 30
0.0
 11
-2.5
 21
0.0
 31
0.0
  0
LINE
  5
8C
330
87
100
AcDbEntity
  8
FORMAT
 62
     0
100
AcDbLine
 10
0.0
 20
0.0
 30
0.0
 11
0.0
 21
-2.5
 31
0.0
  0
LINE
  5
8D
330
87
100
AcDbEntity
  8
FORMAT
 62
     0
100
AcDbLine
 10
0.0
 20
0.0
 30
0.0
 11
2.5
 21
0.0
 31
0.0
  0
LINE
  5
8E
330
87
100
AcDbEntity
  8
FORMAT
 62
     0
100
AcDbLine
 10
0.0
 20
5.0
 30
0.0
 11
0.0
 21
62.0
 31
0.0
  0
LINE
  5
8F
330
87
100
AcDbEntity
  8
FORMAT
 62
     0
100
AcDbLine
 10
-5.0
 20
0.0
 30
0.0
 11
-62.0
 21
0.0
 31
0.0
  0
LINE
  5
90
330
87
100
AcDbEntity
  8
FORMAT
 62
     0
100
AcDbLine
 10
0.0
 20
-5.0
 30
0.0
 11
0.0
 21
-62.0
 31
0.0
  0
LINE
  5
91
330
87
100
AcDbEntity
  8
FORMAT
 62
     0
100
AcDbLine
 10
5.0
 20
0.0
 30
0.0
 11
62.0
 21
0.0
 31
0.0
  0
ENDBLK
  5
89
330
87
100
AcDbEntity
  8
0
100
AcDbBlockEnd
  0
ENDSEC
  0
SECTION
  2
ENTITIES
  0
CIRCLE
  5
83
330
1F
100
AcDbEntity
  8
0
  6
Continuous
 62
     7
370
    25
100
AcDbCircle
 10
137.692021681
 20
110.8435618505
 30
0.0
 40
37.49999999999996
  0
CIRCLE
  5
84
330
1F
100
AcDbEntity
  8
0
  6
Continuous
 62
     7
370
    25
100
AcDbCircle
 10
137.692021681
 20
110.8435618505
 30
0.0
 40
32.99999999999996
  0
CIRCLE
  5
85
330
1F
100
AcDbEntity
  8
0
  6
Continuous
 62
     7
370
    25
100
AcDbCircle
 10
137.692021681
 20
110.8435618505
 30
0.0
 40
45.99999999999999
  0
CIRCLE
  5
86
330
1F
100
AcDbEntity
  8
0
  6
Continuous
 62
     7
370
    25
100
AcDbCircle
 10
137.692021681
 20
110.8435618505
 30
0.0
 40
59.49999999999999
  0
INSERT
  5
92
330
1F
100
AcDbEntity
  8
FORMAT
 62
     7
100
AcDbBlockReference
  2
SW_CENTERMARKSYMBOL_0
 10
137.692021681
 20
110.8435618505
 30
0.0
  0
LINE
  5
93
330
1F
100
AcDbEntity
  8
0
  6
Continuous
 62
     7
370
    25
100
AcDbLine
 10
197.192021681
 20
206.3815835651
 30
0.0
 11
197.192021681
 21
222.3815835651
 31
0.0
  0
LINE
  5
94
330
1F
100
AcDbEntity
  8
0
  6
Continuous
 62
     7
370
    25
100
AcDbLine
 10
78.192021681
 20
222.3815835651
 30
0.0
 11
78.192021681
 21
206.3815835651
 31
0.0
  0
LINE
  5
95
330
1F
100
AcDbEntity
  8
0
  6
Continuous
 62
     7
370
    25
100
AcDbLine
 10
183.692021681
 20
222.3815835651
 30
0.0
 11
175.192021681
 21
239.3815835651
 31
0.0
  0
LINE
  5
96
330
1F
100
AcDbEntity
  8
0
  6
Continuous
 62
     7
370
    25
100
AcDbLine
 10
100.192021681
 20
239.3815835651
 30
0.0
 11
91.692021681
 21
222.3815835651
 31
0.0
  0
LINE
  5
97
330
1F
100
AcDbEntity
  8
0
  6
Continuous
 62
     7
370
    25
100
AcDbLine
 10
175.192021681
 20
239.3815835651
 30
0.0
 11
175.192021681
 21
336.3815835651
 31
0.0
  0
LINE
  5
98
330
1F
100
AcDbEntity
  8
0
  6
Continuous
 62
     7
370
    25
100
AcDbLine
 10
100.192021681
 20
336.3815835651
 30
0.0
 11
100.192021681
 21
239.3815835651
 31
0.0
  0
LINE
  5
99
330
1F
100
AcDbEntity
  8
0
  6
Continuous
 62
     7
370
    25
100
AcDbLine
 10
197.192021681
 20
206.3815835651
 30
0.0
 11
78.192021681
 21
206.3815835651
 31
0.0
  0
LINE
  5
9A
330
1F
100
AcDbEntity
  8
0
  6
Continuous
 62
     7
370
    25
100
AcDbLine
 10
197.192021681
 20
222.3815835651
 30
0.0
 11
78.192021681
 21
222.3815835651
 31
0.0
  0
LINE
  5
9B
330
1F
100
AcDbEntity
  8
0
  6
Continuous
 62
     7
370
    25
100
AcDbLine
 10
175.192021681
 20
239.3815835651
 30
0.0
 11
100.192021681
 21
239.3815835651
 31
0.0
  0
LINE
  5
9C
330
1F
100
AcDbEntity
  8
0
  6
Continuous
 62
     7
370
    25
100
AcDbLine
 10
175.192021681
 20
336.3815835651
 30
0.0
 11
100.192021681
 21
336.3815835651
 31
0.0
  0
LINE
  5
9D
330
1F
100
AcDbEntity
  8
0
  6
Continuous
 62
     7
370
    25
100
AcDbLine
 10
257.2376606605
 20
51.3435618505
 30
0.0
 11
273.2376606605
 21
51.3435618505
 31
0.0
  0
LINE
  5
9E
330
1F
100
AcDbEntity
  8
0
  6
Continuous
 62
     7
370
    25
100
AcDbLine
 10
273.2376606605
 20
170.3435618505
 30
0.0
 11
257.2376606605
 21
170.3435618505
 31
0.0
  0
LINE
  5
9F
330
1F
100
AcDbEntity
  8
0
  6
Continuous
 62
     7
370
    25
100
AcDbLine
 10
273.2376606605
 20
64.8435618505
 30
0.0
 11
290.2376606605
 21
73.3435618505
 31
0.0
  0
LINE
  5
A0
330
1F
100
AcDbEntity
  8
0
  6
Continuous
 62
     7
370
    25
100
AcDbLine
 10
290.2376606605
 20
148.3435618505
 30
0.0
 11
273.2376606605
 21
156.8435618505
 31
0.0
  0
LINE
  5
A1
330
1F
100
AcDbEntity
  8
0
  6
Continuous
 62
     7
370
    25
100
AcDbLine
 10
290.2376606605
 20
73.3435618505
 30
0.0
 11
387.2376606605
 21
73.3435618505
 31
0.0
  0
LINE
  5
A2
330
1F
100
AcDbEntity
  8
0
  6
Continuous
 62
     7
370
    25
100
AcDbLine
 10
387.2376606605
 20
148.3435618505
 30
0.0
 11
290.2376606605
 21
148.3435618505
 31
0.0
  0
LINE
  5
A3
330
1F
100
AcDbEntity
  8
0
  6
Continuous
 62
     7
370
    25
100
AcDbLine
 10
257.2376606605
 20
110.8435618505
 30
0.0
 11
257.2376606605
 21
170.3435618505
 31
0.0
  0
LINE
  5
A4
330
1F
100
AcDbEntity
  8
0
  6
Continuous
 62
     7
370
    25
100
AcDbLine
 10
257.2376606605
 20
51.3435618505
 30
0.0
 11
257.2376606605
 21
110.8435618505
 31
0.0
  0
LINE
  5
A5
330
1F
100
AcDbEntity
  8
0
  6
Continuous
 62
     7
370
    25
100
AcDbLine
 10
273.2376606605
 20
110.8435618505
 30
0.0
 11
273.2376606605
 21
170.3435618505
 31
0.0
  0
LINE
  5
A6
330
1F
100
AcDbEntity
  8
0
  6
Continuous
 62
     7
370
    25
100
AcDbLine
 10
273.2376606605
 20
51.3435618505
 30
0.0
 11
273.2376606605
 21
110.8435618505
 31
0.0
  0
LINE
  5
A7
330
1F
100
AcDbEntity
  8
0
  6
Continuous
 62
     7
370
    25
100
AcDbLine
 10
290.2376606605
 20
110.8435618505
 30
0.0
 11
290.2376606605
 21
148.3435618505
 31
0.0
  0
LINE
  5
A8
330
1F
100
AcDbEntity
  8
0
  6
Continuous
 62
     7
370
    25
100
AcDbLine
 10
290.2376606605
 20
73.3435618505
 30
0.0
 11
290.2376606605
 21
110.8435618505
 31
0.0
  0
LINE
  5
A9
330
1F
100
AcDbEntity
  8
0
  6
Continuous
 62
     7
370
    25
100
AcDbLine
 10
387.2376606605
 20
110.8435618505
 30
0.0
 11
387.2376606605
 21
148.3435618505
 31
0.0
  0
LINE
  5
AA
330
1F
100
AcDbEntity
  8
0
  6
Continuous
 62
     7
370
    25
100
AcDbLine
 10
387.2376606605
 20
73.3435618505
 30
0.0
 11
387.2376606605
 21
110.8435618505
 31
0.0
  0
LINE
  5
AB
330
1F
100
AcDbEntity
  8
0
  6
Continuous
 62
     7
370
    25
100
AcDbLine
 10
23.3717457916
 20
170.3435618505
 30
0.0
 11
7.3717457916
 21
170.3435618505
 31
0.0
  0
LINE
  5
AC
330
1F
100
AcDbEntity
  8
0
  6
Continuous
 62
     7
370
    25
100
AcDbLine
 10
7.3717457916
 20
51.3435618505
 30
0.0
 11
23.3717457916
 21
51.3435618505
 31
0.0
  0
LINE
  5
AD
330
1F
100
AcDbEntity
  8
0
  6
Continuous
 62
     7
370
    25
100
AcDbLine
 10
7.3717457916
 20
156.8435618505
 30
0.0
 11
-9.6282542084
 21
148.3435618505
 31
0.0
  0
LINE
  5
AE
330
1F
100
AcDbEntity
  8
0
  6
Continuous
 62
     7
370
    25
100
AcDbLine
 10
-9.6282542084
 20
73.3435618505
 30
0.0
 11
7.3717457916
 21
64.8435618505
 31
0.0
  0
LINE
  5
AF
330
1F
100
AcDbEntity
  8
0
  6
Continuous
 62
     7
370
    25
100
AcDbLine
 10
-9.6282542084
 20
148.3435618505
 30
0.0
 11
-106.6282542084
 21
148.3435618505
 31
0.0
  0
LINE
  5
B0
330
1F
100
AcDbEntity
  8
0
  6
Continuous
 62
     7
370
    25
100
AcDbLine
 10
-106.6282542084
 20
73.3435618505
 30
0.0
 11
-9.6282542084
 21
73.3435618505
 31
0.0
  0
LINE
  5
B1
330
1F
100
AcDbEntity
  8
0
  6
Continuous
 62
     7
370
    25
100
AcDbLine
 10
23.3717457916
 20
170.3435618505
 30
0.0
 11
23.3717457916
 21
51.3435618505
 31
0.0
  0
LINE
  5
B2
330
1F
100
AcDbEntity
  8
0
  6
Continuous
 62
     7
370
    25
100
AcDbLine
 10
7.3717457916
 20
170.3435618505
 30
0.0
 11
7.3717457916
 21
51.3435618505
 31
0.0
  0
LINE
  5
B3
330
1F
100
AcDbEntity
  8
0
  6
Continuous
 62
     7
370
    25
100
AcDbLine
 10
-9.6282542084
 20
148.3435618505
 30
0.0
 11
-9.6282542084
 21
73.3435618505
 31
0.0
  0
LINE
  5
B4
330
1F
100
AcDbEntity
  8
0
  6
Continuous
 62
     7
370
    25
100
AcDbLine
 10
-106.6282542084
 20
148.3435618505
 30
0.0
 11
-106.6282542084
 21
73.3435618505
 31
0.0
  0
LINE
  5
B5
330
1F
100
AcDbEntity
  8
0
  6
Continuous
 62
     7
370
    25
100
AcDbLine
 10
78.192021681
 20
-12.3667037304
 30
0.0
 11
78.192021681
 21
-28.3667037304
 31
0.0
  0
LINE
  5
B6
330
1F
100
AcDbEntity
  8
0
  6
Continuous
 62
     7
370
    25
100
AcDbLine
 10
197.192021681
 20
-28.3667037304
 30
0.0
 11
197.192021681
 21
-12.3667037304
 31
0.0
  0
LINE
  5
B7
330
1F
100
AcDbEntity
  8
0
  6
Continuous
 62
     7
370
    25
100
AcDbLine
 10
91.692021681
 20
-28.3667037304
 30
0.0
 11
100.192021681
 21
-45.3667037304
 31
0.0
  0
LINE
  5
B8
330
1F
100
AcDbEntity
  8
0
  6
Continuous
 62
     7
370
    25
100
AcDbLine
 10
175.192021681
 20
-45.3667037304
 30
0.0
 11
183.692021681
 21
-28.3667037304
 31
0.0
  0
LINE
  5
B9
330
1F
100
AcDbEntity
  8
0
  6
Continuous
 62
     7
370
    25
100
AcDbLine
 10
100.192021681
 20
-45.3667037304
 30
0.0
 11
100.192021681
 21
-142.3667037304
 31
0.0
  0
LINE
  5
BA
330
1F
100
AcDbEntity
  8
0
  6
Continuous
 62
     7
370
    25
100
AcDbLine
 10
175.192021681
 20
-142.3667037304
 30
0.0
 11
175.192021681
 21
-45.3667037304
 31
0.0
  0
LINE
  5
BB
330
1F
100
AcDbEntity
  8
0
  6
Continuous
 62
     7
370
    25
100
AcDbLine
 10
78.192021681
 20
-12.3667037304
 30
0.0
 11
197.192021681
 21
-12.3667037304
 31
0.0
  0
LINE
  5
BC
330
1F
100
AcDbEntity
  8
0
  6
Continuous
 62
     7
370
    25
100
AcDbLine
 10
78.192021681
 20
-28.3667037304
 30
0.0
 11
197.192021681
 21
-28.3667037304
 31
0.0
  0
LINE
  5
BD
330
1F
100
AcDbEntity
  8
0
  6
Continuous
 62
     7
370
    25
100
AcDbLine
 10
100.192021681
 20
-45.3667037304
 30
0.0
 11
175.192021681
 21
-45.3667037304
 31
0.0
  0
LINE
  5
BE
330
1F
100
AcDbEntity
  8
0
  6
Continuous
 62
     7
370
    25
100
AcDbLine
 10
100.192021681
 20
-142.3667037304
 30
0.0
 11
175.192021681
 21
-142.3667037304
 31
0.0
  0
LINE
  5
BF
330
1F
100
AcDbEntity
  8
0
  6
Continuous
 62
     7
370
    25
100
AcDbLine
 10
293.6842712504
 20
-24.2890803532
 30
0.0
 11
225.0949134753
 21
-63.8848737766
 31
0.0
  0
LINE
  5
C0
330
1F
100
AcDbEntity
  8
0
  6
Continuous
 62
     7
370
    25
100
AcDbLine
 10
262.5918659492
 20
-128.8385384552
 30
0.0
 11
331.1812237243
 21
-89.2427450318
 31
0.0
  0
LINE
  5
C1
330
1F
100
AcDbEntity
  8
0
  6
Continuous
 62
     7
370
    25
100
AcDbLine
 10
306.0196889706
 20
8.2347284642
 30
0.0
 11
294.7059804716
 21
1.7034635697
 31
0.0
  0
LINE
  5
C2
330
1F
100
AcDbEntity
  8
0
  6
Continuous
 62
     7
370
    25
100
AcDbLine
 10
354.2011450634
 20
-101.3563510536
 30
0.0
 11
365.5148535624
 21
-94.8250861591
 31
0.0
  0
LINE
  5
C3
330
1F
100
AcDbEntity
  8
0
  6
Continuous
 62
     7
370
    25
100
AcDbLine
 10
294.8079813511
 20
-17.2567175518
 30
0.0
 11
290.2585238356
 21
-26.2667222405
 31
0.0
  0
LINE
  5
C4
330
1F
100
AcDbEntity
  8
0
  6
Continuous
 62
     7
370
    25
100
AcDbLine
 10
327.7554763095
 20
-91.220386919
 30
0.0
 11
337.8330449476
 21
-91.7863891448
 31
0.0
  0
LWPOLYLINE
  5
C5
330
1F
100
AcDbEntity
  8
0
  6
Continuous
 62
     7
370
    25
100
AcDbPolyline
 90
       52
 70
   128
 43
0.0
 10
293.6842712504
 20
-24.2890803532
 10
294.2809512132
 20
-23.9658799434
 10
295.5304915257
 20
-23.4151164384
 10
296.8467373207
 20
-22.9959732897
 10
298.2244939772
 20
-22.7101046638
 10
299.6583241191
 20
-22.5586387536
 10
301.142569074
 20
-22.5421733258
 10
302.6713712052
 20
-22.660773362
 10
304.2386970289
 20
-22.9139708019
 10
305.8383610263
 20
-23.300766391
 10
307.4640500544
 20
-23.8196336238
 10
309.1093482613
 20
-24.4685247684
 10
310.7677624066
 20
-25.2448789478
 10
312.4327474873
 20
-26.1456322468
 10
314.0977325681
 20
-27.1672298036
 10
315.7561467134
 20
-28.3056398395
 10
317.4014449203
 20
-29.55636957
 10
319.0271339483
 20
-30.9144829364
 10
320.6267979457
 20
-32.3746200856
 10
322.1941237695
 20
-33.9310185235
 10
323.7229259006
 20
-35.5775358563
 10
325.2071708555
 20
-37.3076740325
 10
326.6410009975
 20
-39.1146049871
 10
328.018757654
 20
-40.991197589
 10
329.3350034489
 20
-42.9300457847
 10
330.5845437615
 20
-44.923497826
 10
331.7624472269
 20
-46.9636864686
 10
332.8640651984
 20
-49.0425600198
 10
333.885050093
 20
-51.1519141156
 10
334.8213725499
 20
-53.283424099
 10
335.669337332
 20
-55.4286778738
 10
336.4255979098
 20
-57.5792091036
 10
337.0871696683
 20
-59.726530624
 10
337.651441686
 20
-61.8621679379
 10
338.116187039
 20
-63.9776926607
 10
338.4795715897
 20
-66.0647557827
 10
338.7401612254
 20
-68.1151206193
 10
338.8969275177
 20
-70.1206953171
 10
338.9492517818
 20
-72.0735647892
 10
338.8969275177
 20
-73.9660219518
 10
338.7401612254
 20
-75.7905981411
 10
338.4795715897
 20
-77.5400925885
 10
338.116187039
 20
-79.2076008387
 10
337.651441686
 20
-80.7865419985
 10
337.0871696683
 20
-82.2706847083
 10
336.4255979098
 20
-83.654171735
 10
335.669337332
 20
-84.9315430873
 10
334.8213725499
 20
-86.0977575642
 10
333.885050093
 20
-87.1482126497
 10
332.8640651984
 20
-88.0787626777
 10
331.7624472269
 20
-88.8857351923
 10
331.1812237243
 20
-89.2427450318
  0
LWPOLYLINE
  5
C6
330
1F
100
AcDbEntity
  8
0
  6
Continuous
 62
     7
370
    25
100
AcDbPolyline
 90
      101
 70
   128
 43
0.0
 10
217.3268854177
 20
-81.0540540192
 10
217.3792096818
 20
-79.1615968566
 10
217.5359759742
 20
-77.3370206673
 10
217.7965656099
 20
-75.5875262198
 10
218.1599501606
 20
-73.9200179696
 10
218.6246955136
 20
-72.3410768099
 10
219.1889675313
 20
-70.8569341001
 10
219.8505392897
 20
-69.4734470734
 10
220.6067998676
 20
-68.196075721
 10
221.4547646497
 20
-67.0298612442
 10
222.3910871066
 20
-65.9794061586
 10
223.4120720012
 20
-65.0488561307
 10
224.5136899727
 20
-64.2418836161
 10
225.6915934381
 20
-63.5616733668
 10
226.9411337507
 20
-63.0109098618
 10
228.2573795456
 20
-62.5917667131
 10
229.6351362021
 20
-62.3058980872
 10
231.068966344
 20
-62.154432177
 10
232.5532112989
 20
-62.1379667493
 10
234.0820134301
 20
-62.2565667854
 10
235.6493392538
 20
-62.5097642253
 10
237.2490032512
 20
-62.8965598144
 10
238.8746922793
 20
-63.4154270472
 10
240.5199904862
 20
-64.0643181918
 10
242.1784046315
 20
-64.8406723712
 10
243.8433897122
 20
-65.7414256702
 10
245.508374793
 20
-66.763023227
 10
247.1667889383
 20
-67.9014332629
 10
248.8120871452
 20
-69.1521629934
 10
250.4377761732
 20
-70.5102763598
 10
252.0374401707
 20
-71.970413509
 10
253.6047659944
 20
-73.5268119469
 10
255.1335681255
 20
-75.1733292797
 10
256.6178130804
 20
-76.9034674559
 10
258.0516432224
 20
-78.7103984105
 10
259.4293998789
 20
-80.5869910124
 10
260.7456456738
 20
-82.5258392081
 10
261.9951859864
 20
-84.5192912494
 10
263.1730894518
 20
-86.559479892
 10
264.2747074233
 20
-88.6383534432
 10
265.2956923179
 20
-90.747707539
 10
266.2320147748
 20
-92.8792175224
 10
267.0799795569
 20
-95.0244712972
 10
267.8362401347
 20
-97.175002527
 10
268.4978118932
 20
-99.3223240474
 10
269.0620839109
 20
-101.4579613613
 10
269.5268292639
 20
-103.5734860841
 10
269.8902138146
 20
-105.6605492061
 10
270.1508034503
 20
-107.7109140427
 10
270.3075697426
 20
-109.7164887405
 10
270.3598940067
 20
-111.6693582126
 10
270.3075697426
 20
-113.5618153752
 10
270.1508034503
 20
-115.3863915645
 10
269.8902138146
 20
-117.1358860119
 10
269.5268292639
 20
-118.8033942621
 10
269.0620839109
 20
-120.3823354219
 10
268.4978118932
 20
-121.8664781317
 10
267.8362401347
 20
-123.2499651584
 10
267.0799795569
 20
-124.5273365107
 10
266.2320147748
 20
-125.6935509876
 10
265.2956923179
 20
-126.7440060731
 10
264.2747074233
 20
-127.6745561011
 10
263.1730894518
 20
-128.4815286157
 10
261.9951859864
 20
-129.161738865
 10
260.7456456738
 20
-129.71250237
 10
259.4293998789
 20
-130.1316455186
 10
258.0516432224
 20
-130.4175141445
 10
256.6178130804
 20
-130.5689800547
 10
255.1335681255
 20
-130.5854454825
 10
253.6047659944
 20
-130.4668454463
 10
252.0374401707
 20
-130.2136480064
 10
250.4377761732
 20
-129.8268524173
 10
248.8120871452
 20
-129.3079851845
 10
247.1667889383
 20
-128.65909404
 10
245.508374793
 20
-127.8827398606
 10
243.8433897122
 20
-126.9819865616
 10
242.1784046315
 20
-125.9603890047
 10
240.5199904862
 20
-124.8219789689
 10
238.8746922793
 20
-123.5712492383
 10
237.2490032512
 20
-122.213135872
 10
235.6493392538
 20
-120.7529987227
 10
234.0820134301
 20
-119.1966002849
 10
232.5532112989
 20
-117.550082952
 10
231.068966344
 20
-115.8199447758
 10
229.6351362021
 20
-114.0130138213
 10
228.2573795456
 20
-112.1364212193
 10
226.9411337507
 20
-110.1975730237
 10
225.6915934381
 20
-108.2041209823
 10
224.5136899727
 20
-106.1639323398
 10
223.4120720012
 20
-104.0850587885
 10
222.3910871066
 20
-101.9757046927
 10
221.4547646497
 20
-99.8441947094
 10
220.6067998676
 20
-97.6989409345
 10
219.8505392897
 20
-95.5484097048
 10
219.1889675313
 20
-93.4010881844
 10
218.6246955136
 20
-91.2654508704
 10
218.1599501606
 20
-89.1499261476
 10
217.7965656099
 20
-87.0628630256
 10
217.5359759742
 20
-85.0124981891
 10
217.3792096818
 20
-83.0069234912
 10
217.3268854177
 20
-81.0540540192
  0
LWPOLYLINE
  5
C7
330
1F
100
AcDbEntity
  8
0
  6
Continuous
 62
     7
370
    25
100
AcDbPolyline
 90
       95
 70
   128
 43
0.0
 10
220.5088659331
 20
-82.8909722708
 10
220.560974757
 20
-81.1212699788
 10
220.7170684979
 20
-79.4196351742
 10
220.9764500034
 20
-77.7936677712
 10
221.3379608127
 20
-76.2506297349
 10
221.7999863307
 20
-74.7974126478
 10
222.3604630393
 20
-73.4405069301
 10
223.0168877135
 20
-72.1859728522
 10
223.7663286014
 20
-71.0394134677
 10
224.6054385179
 20
-70.0059495894
 10
225.5304697946
 20
-69.0901969176
 10
226.5372910171
 20
-68.2962454262
 10
227.6214054776
 20
-67.6276410952
 10
228.7779712576
 20
-67.0873700738
 10
230.0018228535
 20
-66.6778453438
 10
231.2874942472
 20
-66.4008959417
 10
232.629243318
 20
-66.257758791
 10
234.0210774889
 20
-66.249073177
 10
235.4567804905
 20
-66.3748778915
 10
236.9299401249
 20
-66.6346110604
 10
238.4339769033
 20
-67.0271126521
 10
239.9621734325
 20
-67.5506296593
 10
241.5077044158
 20
-68.2028239279
 10
243.0636671367
 20
-68.9807826001
 10
244.6231122878
 20
-69.8810311235
 10
246.1790750086
 20
-70.8995487697
 10
247.7246059919
 20
-72.0317865917
 10
249.2528025211
 20
-73.2726877404
 10
250.7568392996
 20
-74.6167100502
 10
252.2299989339
 20
-76.057850791
 10
253.6657019356
 20
-77.5896734786
 10
255.0575361065
 20
-79.2053366209
 10
256.3992851773
 20
-80.8976242741
 10
257.6849565709
 20
-82.6589782708
 10
258.9088081669
 20
-84.4815319765
 10
260.0653739469
 20
-86.3571454238
 10
261.1494884073
 20
-88.2774416678
 10
262.1563096299
 20
-90.2338441993
 10
263.0813409066
 20
-92.2176152497
 10
263.9204508231
 20
-94.2198948159
 10
264.669891711
 20
-96.2317402313
 10
265.3263163852
 20
-98.2441661059
 10
265.8867930938
 20
-100.2481844572
 10
266.3488186118
 20
-102.2348448528
 10
266.7103294211
 20
-104.195274385
 10
266.9697109266
 20
-106.1207172998
 10
267.1258046675
 20
-108.0025741015
 10
267.1779134914
 20
-109.832439961
 10
267.1258046675
 20
-111.602142253
 10
266.9697109266
 20
-113.3037770576
 10
266.7103294211
 20
-114.9297444606
 10
266.3488186118
 20
-116.4727824968
 10
265.8867930938
 20
-117.925999584
 10
265.3263163852
 20
-119.2829053017
 10
264.669891711
 20
-120.5374393796
 10
263.9204508231
 20
-121.683998764
 10
263.0813409066
 20
-122.7174626424
 10
262.1563096299
 20
-123.6332153142
 10
261.1494884073
 20
-124.4271668056
 10
260.0653739469
 20
-125.0957711366
 10
258.9088081669
 20
-125.6360421579
 10
257.6849565709
 20
-126.045566888
 10
256.3992851773
 20
-126.32251629
 10
255.0575361065
 20
-126.4656534407
 10
253.6657019356
 20
-126.4743390548
 10
252.2299989339
 20
-126.3485343402
 10
250.7568392996
 20
-126.0888011714
 10
249.2528025211
 20
-125.6962995797
 10
247.7246059919
 20
-125.1727825725
 10
246.1790750086
 20
-124.5205883038
 10
244.6231122878
 20
-123.7426296316
 10
243.0636671367
 20
-122.8423811082
 10
241.5077044158
 20
-121.823863462
 10
239.9621734325
 20
-120.6916256401
 10
238.4339769033
 20
-119.4507244913
 10
236.9299401249
 20
-118.1067021816
 10
235.4567804905
 20
-116.6655614407
 10
234.0210774889
 20
-115.1337387532
 10
232.629243318
 20
-113.5180756109
 10
231.2874942472
 20
-111.8257879576
 10
230.0018228535
 20
-110.0644339609
 10
228.7779712576
 20
-108.2418802553
 10
227.6214054776
 20
-106.366266808
 10
226.5372910171
 20
-104.445970564
 10
225.5304697946
 20
-102.4895680324
 10
224.6054385179
 20
-100.505796982
 10
223.7663286014
 20
-98.5035174158
 10
223.0168877135
 20
-96.4916720004
 10
222.3604630393
 20
-94.4792461258
 10
221.7999863307
 20
-92.4752277745
 10
221.3379608127
 20
-90.488567379
 10
220.9764500034
 20
-88.5281378467
 10
220.7170684979
 20
-86.602694932
 10
220.560974757
 20
-84.7208381303
 10
220.5088659331
 20
-82.8909722708
  0
LWPOLYLINE
  5
C8
330
1F
100
AcDbEntity
  8
0
  6
Continuous
 62
     7
370
    25
100
AcDbPolyline
 90
       66
 70
   128
 43
0.0
 10
306.0196889706
 20
8.2347284642
 10
306.2018200491
 20
8.3385910394
 10
307.7183143799
 20
9.1092470944
 10
309.3034492085
 20
9.7516607377
 10
310.9533454442
 20
10.2642598753
 10
312.6639655145
 20
10.6457900913
 10
314.4311232454
 20
10.8953177174
 10
316.2504941058
 20
11.0122321176
 10
318.1176257905
 20
10.9962471828
 10
320.0279491151
 20
10.8474020308
 10
321.9767891986
 20
10.5660609107
 10
323.9593769026
 20
10.1529123112
 10
325.9708605027
 20
9.6089672763
 10
328.0063175616
 20
8.9355569307
 10
330.0607669747
 20
8.1343292221
 10
332.12918116
 20
7.2072448893
 10
334.2064983615
 20
6.1565726628
 10
336.2876350358
 20
4.9848837136
 10
338.3674982928
 20
3.695045361
 10
340.4409983585
 20
2.2902140555
 10
342.5030610309
 20
0.7738276548
 10
344.5486400969
 20
-0.8504029896
 10
346.572729682
 20
-2.578503113
 10
348.5703764996
 20
-4.4062437649
 10
350.5366919732
 20
-6.3291521576
 10
352.4668641995
 20
-8.342522612
 10
354.3561697235
 20
-10.4414280734
 10
356.199985098
 20
-12.6207321682
 10
357.9937981978
 20
-14.8751017742
 10
359.7332192616
 20
-17.1990200712
 10
361.4139916347
 20
-19.5868000417
 10
363.0320021854
 20
-22.032598388
 10
364.5832913708
 20
-24.5304298317
 10
366.0640629262
 20
-27.0741817607
 10
367.4706931556
 20
-29.6576291877
 10
368.799739799
 20
-32.274449984
 10
370.0479504566
 20
-34.9182403505
 10
371.2122705477
 20
-37.5825304894
 10
372.2898507861
 20
-40.260800436
 10
373.2780541522
 20
-42.9464960151
 10
374.1744623469
 20
-45.6330448794
 10
374.976881709
 20
-48.3138725939
 10
375.683348584
 20
-50.9824187238
 10
376.292134129
 20
-53.6321528895
 10
376.8017485437
 20
-56.2565907475
 10
377.2109447164
 20
-58.8493098587
 10
377.5187212753
 20
-61.4039654049
 10
377.7243250397
 20
-63.9143057158
 10
377.8272528627
 20
-66.3741875682
 10
377.8272528627
 20
-68.7775912188
 10
377.7243250397
 20
-71.1186351361
 10
377.5187212753
 20
-73.3915903936
 10
377.2109447164
 20
-75.5908946887
 10
376.8017485437
 20
-77.7111659553
 10
376.292134129
 20
-79.7472155343
 10
375.683348584
 20
-81.6940608712
 10
374.976881709
 20
-83.5469377092
 10
374.1744623469
 20
-85.3013117482
 10
373.2780541522
 20
-86.952889741
 10
372.2898507861
 20
-88.4976299995
 10
371.2122705477
 20
-89.9317522854
 10
370.0479504566
 20
-91.251747061
 10
368.799739799
 20
-92.4543840782
 10
367.4706931556
 20
-93.5367202824
 10
366.0640629262
 20
-94.4961070157
 10
365.5148535624
 20
-94.8250861591
  0
LWPOLYLINE
  5
C9
330
1F
100
AcDbEntity
  8
0
  6
Continuous
 62
     7
370
    25
100
AcDbPolyline
 90
       99
 70
   128
 43
0.0
 10
282.3807092869
 20
-25.5383024153
 10
282.4321889482
 20
-23.1653526445
 10
282.5865019529
 20
-20.8576470313
 10
282.8432706711
 20
-18.620832918
 10
283.2018667468
 20
-16.4603841635
 10
283.6614126352
 20
-14.381587748
 10
284.2207837506
 20
-12.3895308347
 10
284.8786112181
 20
-10.4890883206
 10
285.6332852237
 20
-8.6849109071
 10
286.4829589536
 20
-6.9814137186
 10
287.4255531138
 20
-5.3827654981
 10
288.4587610185
 20
-3.8928784058
 10
289.5800542348
 20
-2.515398445
 10
290.7866887703
 20
-1.2536965401
 10
292.075711788
 20
-0.1108602869
 10
293.4439688327
 20
0.9103136026
 10
294.8881115501
 20
1.8073261448
 10
296.4046058809
 20
2.5779821998
 10
297.9897407095
 20
3.2203958431
 10
299.6396369452
 20
3.7329949807
 10
301.3502570155
 20
4.1145251967
 10
303.1174147464
 20
4.3640528228
 10
304.9367856069
 20
4.480967223
 10
306.8039172915
 20
4.4649822882
 10
308.7142406162
 20
4.3161371362
 10
310.6630806996
 20
4.0347960161
 10
312.6456684036
 20
3.6216474166
 10
314.6571520037
 20
3.0777023818
 10
316.6926090626
 20
2.4042920361
 10
318.7470584757
 20
1.6030643276
 10
320.815472661
 20
0.6759799947
 10
322.8927898625
 20
-0.3746922318
 10
324.9739265368
 20
-1.546381181
 10
327.0537897938
 20
-2.8362195336
 10
329.1272898596
 20
-4.2410508391
 10
331.1893525319
 20
-5.7574372398
 10
333.234931598
 20
-7.3816678842
 10
335.259021183
 20
-9.1097680076
 10
337.2566680006
 20
-10.9375086594
 10
339.2229834743
 20
-12.8604170521
 10
341.1531557005
 20
-14.8737875066
 10
343.0424612245
 20
-16.9726929679
 10
344.886276599
 20
-19.1519970628
 10
346.6800896988
 20
-21.4063666688
 10
348.4195107626
 20
-23.7302849658
 10
350.1002831358
 20
-26.1180649363
 10
351.7182936865
 20
-28.5638632826
 10
353.2695828718
 20
-31.0616947263
 10
354.7503544272
 20
-33.6054466553
 10
356.1569846566
 20
-36.1888940823
 10
357.4860313
 20
-38.8057148785
 10
358.7342419576
 20
-41.4495052451
 10
359.8985620488
 20
-44.1137953839
 10
360.9761422871
 20
-46.7920653306
 10
361.9643456532
 20
-49.4777609096
 10
362.8607538479
 20
-52.164309774
 10
363.66317321
 20
-54.8451374885
 10
364.369640085
 20
-57.5136836183
 10
364.97842563
 20
-60.1634177841
 10
365.4880400447
 20
-62.7878556421
 10
365.8972362174
 20
-65.3805747533
 10
366.2050127763
 20
-67.9352302995
 10
366.4106165407
 20
-70.4455706104
 10
366.5135443637
 20
-72.9054524627
 10
366.5135443637
 20
-75.3088561133
 10
366.4106165407
 20
-77.6499000307
 10
366.2050127763
 20
-79.9228552882
 10
365.8972362174
 20
-82.1221595833
 10
365.4880400447
 20
-84.2424308498
 10
364.97842563
 20
-86.2784804288
 10
364.369640085
 20
-88.2253257657
 10
363.66317321
 20
-90.0782026038
 10
362.8607538479
 20
-91.8325766428
 10
361.9643456532
 20
-93.4841546356
 10
360.9761422871
 20
-95.0288948941
 10
359.8985620488
 20
-96.4630171799
 10
358.7342419576
 20
-97.7830119556
 10
357.4860313
 20
-98.9856489727
 10
356.1569846566
 20
-100.067985177
 10
354.7503544272
 20
-101.0273719103
 10
353.2695828718
 20
-101.8614613925
 10
351.7182936865
 20
-102.568212467
 10
350.1002831358
 20
-103.1458955954
 10
348.4195107626
 20
-103.5930970903
 10
346.6800896988
 20
-103.9087225747
 10
344.886276599
 20
-104.0919996601
 10
343.0424612245
 20
-104.1424798369
 10
341.1531557005
 20
-104.0600395715
 10
339.2229834743
 20
-103.8448806091
 10
337.2566680006
 20
-103.4975294797
 10
335.259021183
 20
-103.0188362098
 10
333.234931598
 20
-102.409972242
 10
331.1893525319
 20
-101.6724275685
 10
329.1272898596
 20
-100.8080070846
 10
327.0537897938
 20
-99.8188261722
 10
324.9739265368
 20
-98.7073055227
 10
322.8927898625
 20
-97.4761652133
 10
320.815472661
 20
-96.1284180508
 10
320.1025431495
 20
-95.6383311937
  0
ARC
  5
CA
330
1F
100
AcDbEntity
  8
0
  6
Continuous
 62
     7
370
    25
100
AcDbCircle
 10
343.5022628773
 20
-25.4455607635
 30
0.0
 40
61.12162395023876
100
AcDbArc
 50
180.0869366179
 51
184.9172032789
  0
LWPOLYLINE
  5
CB
330
1F
100
AcDbEntity
  8
0
  6
Continuous
 62
     7
370
    25
100
AcDbPolyline
 90
       70
 70
   128
 43
0.0
 10
294.8079813511
 20
-17.2567175518
 10
295.2051288776
 20
-16.5079341275
 10
296.0571095911
 20
-15.1152702892
 10
297.0000527048
 20
-13.8337968041
 10
298.0309376879
 20
-12.6676186179
 10
299.1464623048
 20
-11.6204713512
 10
300.343053194
 20
-10.6957093321
 10
301.6168773141
 20
-9.8962948523
 10
302.9638542224
 20
-9.2247886774
 10
304.3796691458
 20
-8.683341844
 10
305.8597868022
 20
-8.2736887696
 10
307.3994659286
 20
-7.9971416966
 10
308.9937744685
 20
-7.8545864885
 10
310.6376053712
 20
-7.8464797926
 10
312.3256929505
 20
-7.9728475772
 10
314.0526297531
 20
-8.2332850481
 10
315.8128838798
 20
-8.6269579456
 10
317.6008167059
 20
-9.1526052168
 10
319.4107009436
 20
-9.8085430549
 10
321.236738988
 20
-10.5926702933
 10
323.0730814887
 20
-11.5024751361
 10
324.9138460872
 20
-12.5350432041
 10
326.7531362595
 20
-13.6870668704
 10
328.5850602045
 20
-14.954855856
 10
330.4037497178
 20
-16.3343490504
 10
332.2033789884
 20
-17.8211275212
 10
333.9781832613
 20
-19.4104286687
 10
335.7224773033
 20
-21.0971614822
 10
337.4306736147
 20
-22.8759228478
 10
339.0973003278
 20
-24.7410148569
 10
340.7170187348
 20
-26.6864630572
 10
342.2846403893
 20
-28.7060355919
 10
343.7951437265
 20
-30.7932631611
 10
345.243690149
 20
-32.9414597457
 10
346.6256395257
 20
-35.1437440245
 10
347.9365650562
 20
-37.393061417
 10
349.1722674508
 20
-39.6822066814
 10
350.3287883823
 20
-42.0038469954
 10
351.4024231654
 20
-44.350545445
 10
352.3897326242
 20
-46.7147848478
 10
353.2875541089
 20
-49.088991832
 10
354.0930116266
 20
-51.4655610971
 10
354.8035250541
 20
-53.8368797751
 10
355.4168184026
 20
-56.1953518175
 10
355.9309271086
 20
-58.5334223272
 10
356.344204327
 20
-60.8436017596
 10
356.6553262062
 20
-63.1184899134
 10
356.8632961292
 20
-65.3507996361
 10
356.9674479054
 20
-67.5333801667
 10
356.9674479054
 20
-69.6592400418
 10
356.8632961292
 20
-71.7215694911
 10
356.6553262062
 20
-73.7137622519
 10
356.344204327
 20
-75.6294367301
 10
355.9309271086
 20
-77.4624564427
 10
355.4168184026
 20
-79.2069496751
 10
354.8035250541
 20
-80.8573282895
 10
354.0930116266
 20
-82.4083056256
 10
353.2875541089
 20
-83.8549134355
 10
352.3897326242
 20
-85.1925177983
 10
351.4024231654
 20
-86.4168339638
 10
350.3287883823
 20
-87.5239400783
 10
349.1722674508
 20
-88.5102897473
 10
347.9365650562
 20
-89.3727233952
 10
346.6256395257
 20
-90.1084783872
 10
345.243690149
 20
-90.7151978782
 10
343.7951437265
 20
-91.1909383628
 10
342.2846403893
 20
-91.5341759007
 10
340.7170187348
 20
-91.7438109987
 10
339.0973003278
 20
-91.8191721322
 10
337.8330449476
 20
-91.7863891448
  0
ENDSEC
  0
SECTION
  2
OBJECTS
  0
DICTIONARY
  5
C
330
0
100
AcDbDictionary
281
     1
  3
ACAD_GROUP
350
D
  3
ACAD_LAYOUT
350
1A
  3
ACAD_MLINESTYLE
350
17
  3
ACAD_PLOTSETTINGS
350
19
  3
ACAD_PLOTSTYLENAME
350
E
  3
ACAD_SCALELIST
350
47
  0
DICTIONARY
  5
D
102
{ACAD_REACTORS
330
C
102
}
330
C
100
AcDbDictionary
281
     1
  0
DICTIONARY
  5
1A
102
{ACAD_REACTORS
330
C
102
}
330
C
100
AcDbDictionary
281
     1
  3
Layout1
350
1E
  3
Layout2
350
26
  3
Model
350
22
  0
DICTIONARY
  5
17
102
{ACAD_REACTORS
330
C
102
}
330
C
100
AcDbDictionary
281
     1
  3
Standard
350
18
  0
DICTIONARY
  5
19
102
{ACAD_REACTORS
330
C
102
}
330
C
100
AcDbDictionary
281
     1
  0
ACDBDICTIONARYWDFLT
  5
E
102
{ACAD_REACTORS
330
C
102
}
330
C
100
AcDbDictionary
281
     1
  3
Normal
350
F
100
AcDbDictionaryWithDefault
340
F
  0
DICTIONARY
  5
47
102
{ACAD_REACTORS
330
C
102
}
330
C
100
AcDbDictionary
281
     1
  3
A0
350
48
  3
A1
350
49
  3
A2
350
4A
  3
A3
350
4B
  3
A4
350
4C
  3
A5
350
4D
  3
A6
350
4E
  3
A7
350
4F
  3
A8
350
50
  3
A9
350
51
  3
B0
350
52
  3
B1
350
53
  3
B2
350
54
  3
B3
350
55
  3
B4
350
56
  3
B5
350
57
  3
B6
350
58
  3
B7
350
59
  3
B8
350
5A
  3
B9
350
5B
  3
C0
350
5C
  3
C1
350
5D
  3
C2
350
5E
  3
C3
350
5F
  3
C4
350
60
  3
C5
350
61
  3
C6
350
62
  3
C7
350
63
  3
C8
350
64
  3
C9
350
65
  3
D0
350
66
  3
D1
350
67
  3
D2
350
68
  0
LAYOUT
  5
1E
102
{ACAD_REACTORS
330
1A
102
}
330
1A
100
AcDbPlotSettings
  1

  2
none_device
  4

  6

 40
0.0
 41
0.0
 42
0.0
 43
0.0
 44
0.0
 45
0.0
 46
0.0
 47
0.0
 48
0.0
 49
0.0
140
0.0
141
0.0
142
1.0
143
1.0
 70
   688
 72
     1
 73
     0
 74
     5
  7

 75
    16
147
1.0
148
0.0
149
0.0
100
AcDbLayout
  1
Layout1
 70
     1
 71
     1
 10
0.0
 20
0.0
 11
420.0
 21
297.0
 12
0.0
 22
0.0
 32
0.0
 14
1.0000000000E+20
 24
1.0000000000E+20
 34
1.0000000000E+20
 15
-1.0000000000E+20
 25
-1.0000000000E+20
 35
-1.0000000000E+20
146
0.0
 13
0.0
 23
0.0
 33
0.0
 16
1.0
 26
0.0
 36
0.0
 17
0.0
 27
1.0
 37
0.0
 76
     0
330
1B
  0
LAYOUT
  5
26
102
{ACAD_REACTORS
330
1A
102
}
330
1A
100
AcDbPlotSettings
  1

  2
none_device
  4

  6

 40
0.0
 41
0.0
 42
0.0
 43
0.0
 44
0.0
 45
0.0
 46
0.0
 47
0.0
 48
0.0
 49
0.0
140
0.0
141
0.0
142
1.0
143
1.0
 70
   688
 72
     1
 73
     0
 74
     5
  7

 75
    16
147
1.0
148
0.0
149
0.0
100
AcDbLayout
  1
Layout2
 70
     1
 71
     2
 10
0.0
 20
0.0
 11
0.0
 21
0.0
 12
0.0
 22
0.0
 32
0.0
 14
0.0
 24
0.0
 34
0.0
 15
0.0
 25
0.0
 35
0.0
146
0.0
 13
0.0
 23
0.0
 33
0.0
 16
1.0
 26
0.0
 36
0.0
 17
0.0
 27
1.0
 37
0.0
 76
     0
330
23
  0
LAYOUT
  5
22
102
{ACAD_REACTORS
330
1A
102
}
330
1A
100
AcDbPlotSettings
  1

  2
none_device
  4
Letter_(8.50_x_11.00_Inches)
  6

 40
6.35
 41
6.35
 42
6.35000508
 43
6.35000508
 44
215.9
 45
279.4
 46
0.0
 47
0.0
 48
0.0
 49
0.0
140
0.0
141
0.0
142
1.0
143
1.0
 70
  1712
 72
     1
 73
     0
 74
     0
  7

 75
     0
147
1.0
148
0.0
149
0.0
100
AcDbLayout
  1
Model
 70
     1
 71
     0
 10
0.0
 20
0.0
 11
279.4
 21
215.9
 12
0.0
 22
0.0
 32
0.0
 14
0.0
 24
0.0
 34
0.0
 15
279.4
 25
215.9
 35
0.0
146
0.0
 13
0.0
 23
0.0
 33
0.0
 16
1.0
 26
0.0
 36
0.0
 17
0.0
 27
1.0
 37
0.0
 76
     0
330
1F
331
29
  0
MLINESTYLE
  5
18
102
{ACAD_REACTORS
330
17
102
}
330
17
100
AcDbMlineStyle
  2
Standard
 70
     0
  3

 62
   256
 51
90.0
 52
90.0
 71
     2
 49
0.5
 62
   256
  6
BYLAYER
 49
-0.5
 62
   256
  6
BYLAYER
  0
ACDBPLACEHOLDER
  5
F
102
{ACAD_REACTORS
330
E
102
}
330
E
  0
SCALE
  5
48
102
{ACAD_REACTORS
330
47
102
}
330
47
100
AcDbScale
 70
     0
300
1:1
140
1.0
141
1.0
290
     1
  0
SCALE
  5
49
102
{ACAD_REACTORS
330
47
102
}
330
47
100
AcDbScale
 70
     0
300
1:2
140
1.0
141
2.0
290
     0
  0
SCALE
  5
4A
102
{ACAD_REACTORS
330
47
102
}
330
47
100
AcDbScale
 70
     0
300
1:4
140
1.0
141
4.0
290
     0
  0
SCALE
  5
4B
102
{ACAD_REACTORS
330
47
102
}
330
47
100
AcDbScale
 70
     0
300
1:5
140
1.0
141
5.0
290
     0
  0
SCALE
  5
4C
102
{ACAD_REACTORS
330
47
102
}
330
47
100
AcDbScale
 70
     0
300
1:8
140
1.0
141
8.0
290
     0
  0
SCALE
  5
4D
102
{ACAD_REACTORS
330
47
102
}
330
47
100
AcDbScale
 70
     0
300
1:10
140
1.0
141
10.0
290
     0
  0
SCALE
  5
4E
102
{ACAD_REACTORS
330
47
102
}
330
47
100
AcDbScale
 70
     0
300
1:16
140
1.0
141
16.0
290
     0
  0
SCALE
  5
4F
102
{ACAD_REACTORS
330
47
102
}
330
47
100
AcDbScale
 70
     0
300
1:20
140
1.0
141
20.0
290
     0
  0
SCALE
  5
50
102
{ACAD_REACTORS
330
47
102
}
330
47
100
AcDbScale
 70
     0
300
1:30
140
1.0
141
30.0
290
     0
  0
SCALE
  5
51
102
{ACAD_REACTORS
330
47
102
}
330
47
100
AcDbScale
 70
     0
300
1:40
140
1.0
141
40.0
290
     0
  0
SCALE
  5
52
102
{ACAD_REACTORS
330
47
102
}
330
47
100
AcDbScale
 70
     0
300
1:50
140
1.0
141
50.0
290
     0
  0
SCALE
  5
53
102
{ACAD_REACTORS
330
47
102
}
330
47
100
AcDbScale
 70
     0
300
1:100
140
1.0
141
100.0
290
     0
  0
SCALE
  5
54
102
{ACAD_REACTORS
330
47
102
}
330
47
100
AcDbScale
 70
     0
300
2:1
140
2.0
141
1.0
290
     0
  0
SCALE
  5
55
102
{ACAD_REACTORS
330
47
102
}
330
47
100
AcDbScale
 70
     0
300
4:1
140
4.0
141
1.0
290
     0
  0
SCALE
  5
56
102
{ACAD_REACTORS
330
47
102
}
330
47
100
AcDbScale
 70
     0
300
8:1
140
8.0
141
1.0
290
     0
  0
SCALE
  5
57
102
{ACAD_REACTORS
330
47
102
}
330
47
100
AcDbScale
 70
     0
300
10:1
140
10.0
141
1.0
290
     0
  0
SCALE
  5
58
102
{ACAD_REACTORS
330
47
102
}
330
47
100
AcDbScale
 70
     0
300
100:1
140
100.0
141
1.0
290
     0
  0
SCALE
  5
59
102
{ACAD_REACTORS
330
47
102
}
330
47
100
AcDbScale
 70
     0
300
1/128" = 1'-0"
140
0.0078125
141
12.0
290
     0
  0
SCALE
  5
5A
102
{ACAD_REACTORS
330
47
102
}
330
47
100
AcDbScale
 70
     0
300
1/64" = 1'-0"
140
0.015625
141
12.0
290
     0
  0
SCALE
  5
5B
102
{ACAD_REACTORS
330
47
102
}
330
47
100
AcDbScale
 70
     0
300
1/32" = 1'-0"
140
0.03125
141
12.0
290
     0
  0
SCALE
  5
5C
102
{ACAD_REACTORS
330
47
102
}
330
47
100
AcDbScale
 70
     0
300
1/16" = 1'-0"
140
0.0625
141
12.0
290
     0
  0
SCALE
  5
5D
102
{ACAD_REACTORS
330
47
102
}
330
47
100
AcDbScale
 70
     0
300
3/32" = 1'-0"
140
0.09375
141
12.0
290
     0
  0
SCALE
  5
5E
102
{ACAD_REACTORS
330
47
102
}
330
47
100
AcDbScale
 70
     0
300
1/8" = 1'-0"
140
0.125
141
12.0
290
     0
  0
SCALE
  5
5F
102
{ACAD_REACTORS
330
47
102
}
330
47
100
AcDbScale
 70
     0
300
3/16" = 1'-0"
140
0.1875
141
12.0
290
     0
  0
SCALE
  5
60
102
{ACAD_REACTORS
330
47
102
}
330
47
100
AcDbScale
 70
     0
300
1/4" = 1'-0"
140
0.25
141
12.0
290
     0
  0
SCALE
  5
61
102
{ACAD_REACTORS
330
47
102
}
330
47
100
AcDbScale
 70
     0
300
3/8" = 1'-0"
140
0.375
141
12.0
290
     0
  0
SCALE
  5
62
102
{ACAD_REACTORS
330
47
102
}
330
47
100
AcDbScale
 70
     0
300
1/2" = 1'-0"
140
0.5
141
12.0
290
     0
  0
SCALE
  5
63
102
{ACAD_REACTORS
330
47
102
}
330
47
100
AcDbScale
 70
     0
300
3/4" = 1'-0"
140
0.75
141
12.0
290
     0
  0
SCALE
  5
64
102
{ACAD_REACTORS
330
47
102
}
330
47
100
AcDbScale
 70
     0
300
1" = 1'-0"
140
1.0
141
12.0
290
     0
  0
SCALE
  5
65
102
{ACAD_REACTORS
330
47
102
}
330
47
100
AcDbScale
 70
     0
300
1-1/2" = 1'-0"
140
1.5
141
12.0
290
     0
  0
SCALE
  5
66
102
{ACAD_REACTORS
330
47
102
}
330
47
100
AcDbScale
 70
     0
300
3" = 1'-0"
140
3.0
141
12.0
290
     0
  0
SCALE
  5
67
102
{ACAD_REACTORS
330
47
102
}
330
47
100
AcDbScale
 70
     0
300
6" = 1'-0"
140
6.0
141
12.0
290
     0
  0
SCALE
  5
68
102
{ACAD_REACTORS
330
47
102
}
330
47
100
AcDbScale
 70
     0
300
1'-0" = 1'-0"
140
12.0
141
12.0
290
     0
  0
ENDSEC
  0
EOF
